Falling Away with You (tablature)

MuseWiki, wiki for the band Muse
Jump to: navigation, search
Muse-Falling Away With You | tabbed by Spannious

I checked out the first one on the list of falling away with you tabs
and I found it rather complicated so here is the less complicated version :)


Intro

e|-8---8---8---8---8---8---8---8--|
B|---5---5---5---5---5---5---5----|
G|--------------------------------|
D|--------------------------------|
A|--------------------------------|
E|--------------------------------|

Then start fast with the verse:

Verse X4

e|------------------------------------------------------------------------|
B|--5--6--8--13--13-----12--12--10--10--10--8--6--5--5----------------5---|
G|-----------------------------------------------------------4---4--5---5-|
D|------------------------------------------------------------------------|
A|--3--5--7--12-----12--10-------8-------8--7--5--3----3------------------|
E|---------------------------------------------------------3---4----5-----|


e|------------1--------------|
B|--------------------3/5--3-|
G|-9--7--5--2---2--1---------|  <- Play this part again after playing
D|---------------------------|     the whole thing 4 times...
A|---------------------------|
E|-8--7--5--1----------------|

Chorus

      A           Dm
And I´ll feel my world crumbling     
  A      Dm                                         C6
Feel my life crumbling               e|--------------------------------|
  A           Dm                     B|--------------1-----------------|
I'll feel my soul crumbling away     G|--------------2-----------------|
             C6                      D|--------------2-----------------|
And falling away                     A|--------------3-----------------|
   F     G         C                 E|--------------------------------|
Falling away with you

Then the verse is played a little more agressive and Bellamy
plays some extra notes...

Verse X4

e|---------------------------------------------------------------------------|
B|--5--6--8--13--13-----12--12--10--10--10--8--6--5--5---------------5---5---|
G|----------------------------------------------------------4---4--5---5---5-|
D|---------------------------------------------------------------------------|
A|--3--5--7--12-----12--10-------8-------8--7--5--3----3---------------------|
E|--------------------------------------------------------3---4----5---------|


e|------------1--------------|
B|--------------------3/5--3-|
G|-9--7--5--2---2--1---------|  <- Play this part again after playing
D|---------------------------|     the whole thing 4 times...
A|---------------------------|
E|-8--7--5--1----------------|


Chorus

      A           Dm
And I´ll feel my world crumbling
  A      Dm
Feel my life crumbling
  A           Dm
I'll feel my soul crumbling away
             C6
And falling away
   F     G         C
Falling away with you


Verse last time

Verse

e|------------------------------------------------------------------------|
B|--5--6--8--13--13-----12--12--10--10--10--8--6--5--5----------------5---|
G|-----------------------------------------------------------4---4--5---5-|
D|------------------------------------------------------------------------|
A|--3--5--7--12-----12--10-------8-------8--7--5--3----3------------------|
E|---------------------------------------------------------3---4----5-----|


e|------------1--------------|      |
B|--------------------3/5--3-|      |
G|-9--7--5--2---2--1---------|      | X 2
D|---------------------------|      |
A|---------------------------|      |
E|-8--7--5--1----------------|      |

------------------------------------
Intro

Verse x4

Chorus

Verse x4

Chorus

Verse


Go back to tablature